ISO-10303-21;
HEADER;
FILE_DESCRIPTION (( 'STEP AP203' ),
    '1' );
FILE_NAME ('QM-CAQWP-10-650-1100-M.STEP',
    '2021-01-05T02:44:01',
    ( '' ),
    ( '' ),
    'SwSTEP 2.0',
    'SolidWorks 2020',
    '' );
FILE_SCHEMA (( 'CONFIG_CONTROL_DESIGN' ));
ENDSEC;

DATA;
#1 = EDGE_CURVE ( 'NONE', #183, #123, #198, .T. ) ;
#2 =( NAMED_UNIT ( * ) SI_UNIT ( $, .STERADIAN. ) SOLID_ANGLE_UNIT ( ) );
#3 = CLOSED_SHELL ( 'NONE', ( #72, #315, #193, #140, #28, #99, #268, #170, #159, #150 ) ) ;
#4 = AXIS2_PLACEMENT_3D ( 'NONE', #272, #252, #199 ) ;
#5 = CALENDAR_DATE ( 2021, 5, 1 ) ;
#6 = EDGE_LOOP ( 'NONE', ( #109, #134, #331, #56 ) ) ;
#7 = EDGE_LOOP ( 'NONE', ( #251, #149 ) ) ;
#8 = PERSON_AND_ORGANIZATION ( #141, #260 ) ;
#9 = UNCERTAINTY_MEASURE_WITH_UNIT (LENGTH_MEASURE( 1.000000000000000082E-05 ), #129, 'distance_accuracy_value', 'NONE');
#10 = ORIENTED_EDGE ( 'NONE', *, *, #184, .T. ) ;
#11 = DIRECTION ( 'NONE',  ( -1.000000000000000000, -0.000000000000000000, -0.000000000000000000 ) ) ;
#12 = ORIENTED_EDGE ( 'NONE', *, *, #253, .F. ) ;
#13 = VERTEX_POINT ( 'NONE', #168 ) ;
#14 = CIRCLE ( 'NONE', #200, 12.69999999999999929 ) ;
#15 = CARTESIAN_POINT ( 'NONE',  ( -3.000000000000000000, 1.555301434917138433E-15, -12.69999999999999929 ) ) ;
#16 = DIRECTION ( 'NONE',  ( 0.000000000000000000, 0.000000000000000000, -1.000000000000000000 ) ) ;
#17 = EDGE_CURVE ( 'NONE', #45, #24, #39, .T. ) ;
#18 = DIRECTION ( 'NONE',  ( 0.000000000000000000, 0.000000000000000000, -1.000000000000000000 ) ) ;
#19 = CC_DESIGN_DATE_AND_TIME_ASSIGNMENT ( #110, #286, ( #30 ) ) ;
#20 = CC_DESIGN_APPROVAL ( #79, ( #217 ) ) ;
#21 = CARTESIAN_POINT ( 'NONE',  ( -3.000000000000000000, 5.000000000000000000, 0.000000000000000000 ) ) ;
#22 = DIRECTION ( 'NONE',  ( 0.000000000000000000, 0.000000000000000000, 1.000000000000000000 ) ) ;
#23 = PRODUCT_DEFINITION ( 'UNKNOWN', '', #217, #164 ) ;
#24 = VERTEX_POINT ( 'NONE', #324 ) ;
#25 = EDGE_CURVE ( 'NONE', #277, #13, #326, .T. ) ;
#26 = DIRECTION ( 'NONE',  ( -1.000000000000000000, -0.000000000000000000, -0.000000000000000000 ) ) ;
#27 = APPROVAL_ROLE ( '' ) ;
#28 = ADVANCED_FACE ( 'NONE', ( #112 ), #82, .F. ) ;
#29 = COORDINATED_UNIVERSAL_TIME_OFFSET ( 8, 0, .AHEAD. ) ;
#30 = SECURITY_CLASSIFICATION ( '', '', #236 ) ;
#31 = EDGE_LOOP ( 'NONE', ( #176, #303 ) ) ;
#32 = EDGE_CURVE ( 'NONE', #13, #277, #299, .T. ) ;
#33 = PRODUCT_DEFINITION_SHAPE ( 'NONE', 'NONE',  #23 ) ;
#34 = CARTESIAN_POINT ( 'NONE',  ( -0.5000000000000002220, 0.000000000000000000, 5.000000000000000888 ) ) ;
#35 = VECTOR ( 'NONE', #215, 1000.000000000000000 ) ;
#36 = CARTESIAN_POINT ( 'NONE',  ( 3.000000000000000000, 1.555301434917138433E-15, -12.69999999999999929 ) ) ;
#37 = CARTESIAN_POINT ( 'NONE',  ( 3.000000000000000000, 0.000000000000000000, 0.000000000000000000 ) ) ;
#38 = CARTESIAN_POINT ( 'NONE',  ( 3.000000000000000000, 0.000000000000000000, 0.000000000000000000 ) ) ;
#39 = CIRCLE ( 'NONE', #91, 12.69999999999999929 ) ;
#40 = CARTESIAN_POINT ( 'NONE',  ( 3.000000000000000000, 0.000000000000000000, 0.000000000000000000 ) ) ;
#41 = CARTESIAN_POINT ( 'NONE',  ( -3.000000000000000000, 6.123233995736766282E-16, -5.000000000000000000 ) ) ;
#42 = EDGE_CURVE ( 'NONE', #234, #24, #289, .T. ) ;
#43 = DIRECTION ( 'NONE',  ( 0.000000000000000000, 0.000000000000000000, 1.000000000000000000 ) ) ;
#44 = DIRECTION ( 'NONE',  ( 1.000000000000000000, 0.000000000000000000, 0.000000000000000000 ) ) ;
#45 = VERTEX_POINT ( 'NONE', #15 ) ;
#46 = AXIS2_PLACEMENT_3D ( 'NONE', #156, #26, #70 ) ;
#47 = LOCAL_TIME ( 10, 44, 1.000000000000000000, #29 ) ;
#48 = FACE_OUTER_BOUND ( 'NONE', #314, .T. ) ;
#49 = FACE_BOUND ( 'NONE', #78, .T. ) ;
#50 = ORIENTED_EDGE ( 'NONE', *, *, #307, .T. ) ;
#51 = DIRECTION ( 'NONE',  ( 0.000000000000000000, 0.000000000000000000, 1.000000000000000000 ) ) ;
#52 = ORIENTED_EDGE ( 'NONE', *, *, #320, .F. ) ;
#53 = DATE_AND_TIME ( #5, #47 ) ;
#54 = VECTOR ( 'NONE', #203, 1000.000000000000000 ) ;
#55 = LOCAL_TIME ( 10, 44, 1.000000000000000000, #312 ) ;
#56 = ORIENTED_EDGE ( 'NONE', *, *, #304, .T. ) ;
#57 = ORIENTED_EDGE ( 'NONE', *, *, #17, .T. ) ;
#58 = PERSON_AND_ORGANIZATION_ROLE ( 'design_supplier' ) ;
#59 = EDGE_LOOP ( 'NONE', ( #98, #132, #249, #152 ) ) ;
#60 = DIRECTION ( 'NONE',  ( 0.000000000000000000, 0.000000000000000000, 1.000000000000000000 ) ) ;
#61 = PLANE ( 'NONE',  #4 ) ;
#62 = VECTOR ( 'NONE', #105, 1000.000000000000000 ) ;
#63 = LINE ( 'NONE', #174, #181 ) ;
#64 = ORIENTED_EDGE ( 'NONE', *, *, #139, .T. ) ;
#65 = VECTOR ( 'NONE', #264, 1000.000000000000000 ) ;
#66 = DIRECTION ( 'NONE',  ( 0.000000000000000000, 0.000000000000000000, 1.000000000000000000 ) ) ;
#67 = APPLICATION_CONTEXT ( 'configuration controlled 3d designs of mechanical parts and assemblies' ) ;
#68 = DIRECTION ( 'NONE',  ( 0.000000000000000000, 0.000000000000000000, 1.000000000000000000 ) ) ;
#69 = EDGE_LOOP ( 'NONE', ( #154, #57 ) ) ;
#70 = DIRECTION ( 'NONE',  ( 0.000000000000000000, 0.000000000000000000, 1.000000000000000000 ) ) ;
#71 = VERTEX_POINT ( 'NONE', #36 ) ;
#72 = ADVANCED_FACE ( 'NONE', ( #138 ), #240, .T. ) ;
#73 = MECHANICAL_CONTEXT ( 'NONE', #67, 'mechanical' ) ;
#74 = DIRECTION ( 'NONE',  ( -1.000000000000000000, -0.000000000000000000, -0.000000000000000000 ) ) ;
#75 = CC_DESIGN_PERSON_AND_ORGANIZATION_ASSIGNMENT ( #155, #125, ( #23 ) ) ;
#76 = APPROVAL_STATUS ( 'not_yet_approved' ) ;
#77 = LINE ( 'NONE', #157, #54 ) ;
#78 = EDGE_LOOP ( 'NONE', ( #84, #225 ) ) ;
#79 = APPROVAL ( #76, 'UNSPECIFIED' ) ;
#80 = APPROVAL_DATE_TIME ( #185, #294 ) ;
#81 = APPROVAL_PERSON_ORGANIZATION ( #213, #294, #187 ) ;
#82 = CYLINDRICAL_SURFACE ( 'NONE', #180, 5.000000000000000888 ) ;
#83 = APPROVAL_STATUS ( 'not_yet_approved' ) ;
#84 = ORIENTED_EDGE ( 'NONE', *, *, #304, .F. ) ;
#85 = VERTEX_POINT ( 'NONE', #34 ) ;
#86 = CARTESIAN_POINT ( 'NONE',  ( -1.614212418857619014, 6.123233995736767268E-16, -5.000000000000000888 ) ) ;
#87 = CC_DESIGN_APPROVAL ( #261, ( #23 ) ) ;
#88 = DIRECTION ( 'NONE',  ( -1.000000000000000000, -0.000000000000000000, -0.000000000000000000 ) ) ;
#89 = EDGE_CURVE ( 'NONE', #277, #183, #111, .T. ) ;
#90 = CARTESIAN_POINT ( 'NONE',  ( -0.5000000000000002220, 0.000000000000000000, 0.000000000000000000 ) ) ;
#91 = AXIS2_PLACEMENT_3D ( 'NONE', #144, #188, #214 ) ;
#92 = FACE_OUTER_BOUND ( 'NONE', #69, .T. ) ;
#93 = FACE_BOUND ( 'NONE', #7, .T. ) ;
#94 = DIRECTION ( 'NONE',  ( 0.000000000000000000, 0.000000000000000000, -1.000000000000000000 ) ) ;
#95 = ORIENTED_EDGE ( 'NONE', *, *, #219, .F. ) ;
#96 = CIRCLE ( 'NONE', #317, 5.000000000000000888 ) ;
#97 = CARTESIAN_POINT ( 'NONE',  ( 0.000000000000000000, 0.000000000000000000, 0.000000000000000000 ) ) ;
#98 = ORIENTED_EDGE ( 'NONE', *, *, #89, .F. ) ;
#99 = ADVANCED_FACE ( 'NONE', ( #262 ), #322, .F. ) ;
#100 = APPLICATION_CONTEXT ( 'configuration controlled 3d designs of mechanical parts and assemblies' ) ;
#101 = DATE_AND_TIME ( #284, #55 ) ;
#102 = AXIS2_PLACEMENT_3D ( 'NONE', #186, #292, #287 ) ;
#103 = CIRCLE ( 'NONE', #311, 5.000000000000000888 ) ;
#104 = APPROVAL_STATUS ( 'not_yet_approved' ) ;
#105 = DIRECTION ( 'NONE',  ( -1.000000000000000000, -0.000000000000000000, -0.000000000000000000 ) ) ;
#106 = EDGE_CURVE ( 'NONE', #13, #123, #293, .T. ) ;
#107 = PERSON_AND_ORGANIZATION_ROLE ( 'classification_officer' ) ;
#108 = AXIS2_PLACEMENT_3D ( 'NONE', #122, #329, #297 ) ;
#109 = ORIENTED_EDGE ( 'NONE', *, *, #307, .F. ) ;
#110 = DATE_AND_TIME ( #318, #207 ) ;
#111 = LINE ( 'NONE', #86, #35 ) ;
#112 = FACE_OUTER_BOUND ( 'NONE', #59, .T. ) ;
#113 = CIRCLE ( 'NONE', #309, 12.69999999999999929 ) ;
#114 = DIRECTION ( 'NONE',  ( 0.000000000000000000, 0.000000000000000000, 1.000000000000000000 ) ) ;
#115 = AXIS2_PLACEMENT_3D ( 'NONE', #224, #151, #22 ) ;
#116 = DIRECTION ( 'NONE',  ( 0.000000000000000000, 0.000000000000000000, 1.000000000000000000 ) ) ;
#117 = CC_DESIGN_DATE_AND_TIME_ASSIGNMENT ( #231, #310, ( #23 ) ) ;
#118 = PLANE ( 'NONE',  #136 ) ;
#119 = CARTESIAN_POINT ( 'NONE',  ( -3.000000000000000000, 0.000000000000000000, 0.000000000000000000 ) ) ;
#120 = PLANE ( 'NONE',  #166 ) ;
#121 = ORIENTED_EDGE ( 'NONE', *, *, #17, .F. ) ;
#122 = CARTESIAN_POINT ( 'NONE',  ( 0.5000000000000004441, 0.000000000000000000, 0.000000000000000000 ) ) ;
#123 = VERTEX_POINT ( 'NONE', #189 ) ;
#124 = APPLICATION_PROTOCOL_DEFINITION ( 'international standard', 'config_control_design', 1994, #100 ) ;
#125 = PERSON_AND_ORGANIZATION_ROLE ( 'creator' ) ;
#126 = AXIS2_PLACEMENT_3D ( 'NONE', #37, #270, #142 ) ;
#127 = AXIS2_PLACEMENT_3D ( 'NONE', #119, #171, #194 ) ;
#128 = CC_DESIGN_SECURITY_CLASSIFICATION ( #30, ( #217 ) ) ;
#129 =( LENGTH_UNIT ( ) NAMED_UNIT ( * ) SI_UNIT ( .MILLI., .METRE. ) );
#130 = ORIENTED_EDGE ( 'NONE', *, *, #25, .F. ) ;
#131 = PERSON_AND_ORGANIZATION_ROLE ( 'creator' ) ;
#132 = ORIENTED_EDGE ( 'NONE', *, *, #32, .F. ) ;
#133 = PERSON_AND_ORGANIZATION ( #141, #260 ) ;
#134 = ORIENTED_EDGE ( 'NONE', *, *, #161, .T. ) ;
#135 = PERSON_AND_ORGANIZATION ( #141, #260 ) ;
#136 = AXIS2_PLACEMENT_3D ( 'NONE', #220, #325, #247 ) ;
#137 = APPROVAL_PERSON_ORGANIZATION ( #281, #261, #27 ) ;
#138 = FACE_OUTER_BOUND ( 'NONE', #229, .T. ) ;
#139 = EDGE_CURVE ( 'NONE', #234, #71, #113, .T. ) ;
#140 = ADVANCED_FACE ( 'NONE', ( #192 ), #61, .F. ) ;
#141 = PERSON ( 'UNSPECIFIED', 'UNSPECIFIED', 'UNSPECIFIED', ('UNSPECIFIED'), ('UNSPECIFIED'), ('UNSPECIFIED') ) ;
#142 = DIRECTION ( 'NONE',  ( 0.000000000000000000, 0.000000000000000000, 1.000000000000000000 ) ) ;
#143 = CC_DESIGN_PERSON_AND_ORGANIZATION_ASSIGNMENT ( #133, #58, ( #217 ) ) ;
#144 = CARTESIAN_POINT ( 'NONE',  ( -3.000000000000000000, 0.000000000000000000, 0.000000000000000000 ) ) ;
#145 = AXIS2_PLACEMENT_3D ( 'NONE', #197, #298, #66 ) ;
#146 = CARTESIAN_POINT ( 'NONE',  ( 3.000000000000000000, 6.123233995736768255E-16, -5.000000000000001776 ) ) ;
#147 = FACE_OUTER_BOUND ( 'NONE', #31, .T. ) ;
#148 = CARTESIAN_POINT ( 'NONE',  ( -3.000000000000000000, 0.000000000000000000, 5.000000000000000000 ) ) ;
#149 = ORIENTED_EDGE ( 'NONE', *, *, #25, .T. ) ;
#150 = ADVANCED_FACE ( 'NONE', ( #147 ), #327, .F. ) ;
#151 = DIRECTION ( 'NONE',  ( -1.000000000000000000, -0.000000000000000000, -0.000000000000000000 ) ) ;
#152 = ORIENTED_EDGE ( 'NONE', *, *, #253, .T. ) ;
#153 = DIRECTION ( 'NONE',  ( 1.000000000000000000, 0.000000000000000000, 0.000000000000000000 ) ) ;
#154 = ORIENTED_EDGE ( 'NONE', *, *, #228, .T. ) ;
#155 = PERSON_AND_ORGANIZATION ( #141, #260 ) ;
#156 = CARTESIAN_POINT ( 'NONE',  ( -1.614212418857619014, 0.000000000000000000, 0.000000000000000000 ) ) ;
#157 = CARTESIAN_POINT ( 'NONE',  ( -1.614212418857619014, 0.000000000000000000, 5.000000000000000888 ) ) ;
#158 =( GEOMETRIC_REPRESENTATION_CONTEXT ( 3 ) GLOBAL_UNCERTAINTY_ASSIGNED_CONTEXT ( ( #9 ) ) GLOBAL_UNIT_ASSIGNED_CONTEXT ( ( #129, #280, #2 ) ) REPRESENTATION_CONTEXT ( 'NONE', 'WORKASPACE' ) );
#159 = ADVANCED_FACE ( 'NONE', ( #48, #93 ), #118, .F. ) ;
#160 = ORIENTED_EDGE ( 'NONE', *, *, #1, .T. ) ;
#161 = EDGE_CURVE ( 'NONE', #204, #85, #96, .T. ) ;
#162 = DIRECTION ( 'NONE',  ( 0.000000000000000000, 0.000000000000000000, 1.000000000000000000 ) ) ;
#163 = COORDINATED_UNIVERSAL_TIME_OFFSET ( 8, 0, .AHEAD. ) ;
#164 = DESIGN_CONTEXT ( 'detailed design', #100, 'design' ) ;
#165 = EDGE_LOOP ( 'NONE', ( #95, #333, #259, #121 ) ) ;
#166 = AXIS2_PLACEMENT_3D ( 'NONE', #21, #153, #94 ) ;
#167 = CARTESIAN_POINT ( 'NONE',  ( -1.614212418857619014, 0.000000000000000000, 5.000000000000000888 ) ) ;
#168 = CARTESIAN_POINT ( 'NONE',  ( 3.000000000000000000, 0.000000000000000000, 5.000000000000001776 ) ) ;
#169 = AXIS2_PLACEMENT_3D ( 'NONE', #316, #11, #162 ) ;
#170 = ADVANCED_FACE ( 'NONE', ( #195 ), #221, .T. ) ;
#171 = DIRECTION ( 'NONE',  ( -1.000000000000000000, -0.000000000000000000, -0.000000000000000000 ) ) ;
#172 = AXIS2_PLACEMENT_3D ( 'NONE', #177, #223, #43 ) ;
#173 = LOCAL_TIME ( 10, 44, 1.000000000000000000, #205 ) ;
#174 = CARTESIAN_POINT ( 'NONE',  ( -1.614212418857619014, 1.555301434917138433E-15, -12.69999999999999929 ) ) ;
#175 = LINE ( 'NONE', #276, #62 ) ;
#176 = ORIENTED_EDGE ( 'NONE', *, *, #184, .F. ) ;
#177 = CARTESIAN_POINT ( 'NONE',  ( -3.000000000000000000, 0.000000000000000000, 0.000000000000000000 ) ) ;
#178 = ORIENTED_EDGE ( 'NONE', *, *, #139, .F. ) ;
#179 = MANIFOLD_SOLID_BREP ( 'Ðý×', #3 ) ;
#180 = AXIS2_PLACEMENT_3D ( 'NONE', #242, #319, #116 ) ;
#181 = VECTOR ( 'NONE', #271, 1000.000000000000000 ) ;
#182 = CARTESIAN_POINT ( 'NONE',  ( 3.000000000000000000, 0.000000000000000000, 0.000000000000000000 ) ) ;
#183 = VERTEX_POINT ( 'NONE', #196 ) ;
#184 = EDGE_CURVE ( 'NONE', #85, #204, #103, .T. ) ;
#185 = DATE_AND_TIME ( #239, #291 ) ;
#186 = CARTESIAN_POINT ( 'NONE',  ( -1.614212418857619014, 0.000000000000000000, 0.000000000000000000 ) ) ;
#187 = APPROVAL_ROLE ( '' ) ;
#188 = DIRECTION ( 'NONE',  ( -1.000000000000000000, -0.000000000000000000, -0.000000000000000000 ) ) ;
#189 = CARTESIAN_POINT ( 'NONE',  ( 0.5000000000000004441, 0.000000000000000000, 5.000000000000000000 ) ) ;
#190 = CIRCLE ( 'NONE', #108, 5.000000000000000000 ) ;
#191 = ORIENTED_EDGE ( 'NONE', *, *, #228, .F. ) ;
#192 = FACE_OUTER_BOUND ( 'NONE', #300, .T. ) ;
#193 = ADVANCED_FACE ( 'NONE', ( #243 ), #332, .F. ) ;
#194 = DIRECTION ( 'NONE',  ( 0.000000000000000000, 0.000000000000000000, 1.000000000000000000 ) ) ;
#195 = FACE_OUTER_BOUND ( 'NONE', #165, .T. ) ;
#196 = CARTESIAN_POINT ( 'NONE',  ( 0.5000000000000004441, 6.123233995736766282E-16, -5.000000000000000000 ) ) ;
#197 = CARTESIAN_POINT ( 'NONE',  ( -3.000000000000000000, 0.000000000000000000, 0.000000000000000000 ) ) ;
#198 = CIRCLE ( 'NONE', #274, 5.000000000000000000 ) ;
#199 = DIRECTION ( 'NONE',  ( -0.000000000000000000, 0.000000000000000000, 1.000000000000000000 ) ) ;
#200 = AXIS2_PLACEMENT_3D ( 'NONE', #182, #74, #208 ) ;
#201 = CC_DESIGN_PERSON_AND_ORGANIZATION_ASSIGNMENT ( #135, #131, ( #217 ) ) ;
#202 = VERTEX_POINT ( 'NONE', #148 ) ;
#203 = DIRECTION ( 'NONE',  ( -1.000000000000000000, -0.000000000000000000, -0.000000000000000000 ) ) ;
#204 = VERTEX_POINT ( 'NONE', #330 ) ;
#205 = COORDINATED_UNIVERSAL_TIME_OFFSET ( 8, 0, .AHEAD. ) ;
#206 = CIRCLE ( 'NONE', #145, 5.000000000000000000 ) ;
#207 = LOCAL_TIME ( 10, 44, 1.000000000000000000, #163 ) ;
#208 = DIRECTION ( 'NONE',  ( 0.000000000000000000, 0.000000000000000000, 1.000000000000000000 ) ) ;
#209 = APPROVAL_DATE_TIME ( #101, #261 ) ;
#210 = ORIENTED_EDGE ( 'NONE', *, *, #89, .T. ) ;
#211 = EDGE_CURVE ( 'NONE', #238, #202, #301, .T. ) ;
#212 = AXIS2_PLACEMENT_3D ( 'NONE', #295, #226, #18 ) ;
#213 = PERSON_AND_ORGANIZATION ( #141, #260 ) ;
#214 = DIRECTION ( 'NONE',  ( 0.000000000000000000, 0.000000000000000000, 1.000000000000000000 ) ) ;
#215 = DIRECTION ( 'NONE',  ( -1.000000000000000000, -0.000000000000000000, -0.000000000000000000 ) ) ;
#216 = DIRECTION ( 'NONE',  ( -1.000000000000000000, -0.000000000000000000, -0.000000000000000000 ) ) ;
#217 = PRODUCT_DEFINITION_FORMATION_WITH_SPECIFIED_SOURCE ( 'ANY', '', #256, .NOT_KNOWN. ) ;
#218 = ORIENTED_EDGE ( 'NONE', *, *, #106, .F. ) ;
#219 = EDGE_CURVE ( 'NONE', #71, #45, #63, .T. ) ;
#220 = CARTESIAN_POINT ( 'NONE',  ( 3.000000000000000000, 12.69999999999999929, 0.000000000000000000 ) ) ;
#221 = CYLINDRICAL_SURFACE ( 'NONE', #285, 12.69999999999999929 ) ;
#222 = PRODUCT_RELATED_PRODUCT_CATEGORY ( 'detail', '', ( #256 ) ) ;
#223 = DIRECTION ( 'NONE',  ( -1.000000000000000000, -0.000000000000000000, -0.000000000000000000 ) ) ;
#224 = CARTESIAN_POINT ( 'NONE',  ( -1.614212418857619014, 0.000000000000000000, 0.000000000000000000 ) ) ;
#225 = ORIENTED_EDGE ( 'NONE', *, *, #211, .F. ) ;
#226 = DIRECTION ( 'NONE',  ( 1.000000000000000000, 0.000000000000000000, 0.000000000000000000 ) ) ;
#227 = EDGE_LOOP ( 'NONE', ( #130, #210, #160, #218 ) ) ;
#228 = EDGE_CURVE ( 'NONE', #24, #45, #246, .T. ) ;
#229 = EDGE_LOOP ( 'NONE', ( #64, #275, #191, #279 ) ) ;
#230 = PERSON_AND_ORGANIZATION ( #141, #260 ) ;
#231 = DATE_AND_TIME ( #283, #173 ) ;
#232 = AXIS2_PLACEMENT_3D ( 'NONE', #97, #51, #305 ) ;
#233 = PERSON_AND_ORGANIZATION ( #141, #260 ) ;
#234 = VERTEX_POINT ( 'NONE', #245 ) ;
#235 = EDGE_LOOP ( 'NONE', ( #10, #50, #306, #335 ) ) ;
#236 = SECURITY_CLASSIFICATION_LEVEL ( 'unclassified' ) ;
#237 = AXIS2_PLACEMENT_3D ( 'NONE', #40, #216, #60 ) ;
#238 = VERTEX_POINT ( 'NONE', #41 ) ;
#239 = CALENDAR_DATE ( 2021, 5, 1 ) ;
#240 = CYLINDRICAL_SURFACE ( 'NONE', #169, 12.69999999999999929 ) ;
#241 = DIRECTION ( 'NONE',  ( 0.000000000000000000, 0.000000000000000000, 1.000000000000000000 ) ) ;
#242 = CARTESIAN_POINT ( 'NONE',  ( -1.614212418857619014, 0.000000000000000000, 0.000000000000000000 ) ) ;
#243 = FACE_OUTER_BOUND ( 'NONE', #227, .T. ) ;
#244 = CC_DESIGN_PERSON_AND_ORGANIZATION_ASSIGNMENT ( #230, #257, ( #256 ) ) ;
#245 = CARTESIAN_POINT ( 'NONE',  ( 3.000000000000000000, 0.000000000000000000, 12.69999999999999929 ) ) ;
#246 = CIRCLE ( 'NONE', #172, 12.69999999999999929 ) ;
#247 = DIRECTION ( 'NONE',  ( -0.000000000000000000, 0.000000000000000000, 1.000000000000000000 ) ) ;
#248 = APPROVAL_PERSON_ORGANIZATION ( #233, #79, #258 ) ;
#249 = ORIENTED_EDGE ( 'NONE', *, *, #106, .T. ) ;
#250 = DIRECTION ( 'NONE',  ( 1.000000000000000000, 0.000000000000000000, 0.000000000000000000 ) ) ;
#251 = ORIENTED_EDGE ( 'NONE', *, *, #32, .T. ) ;
#252 = DIRECTION ( 'NONE',  ( -1.000000000000000000, 0.000000000000000000, -0.000000000000000000 ) ) ;
#253 = EDGE_CURVE ( 'NONE', #123, #183, #190, .T. ) ;
#254 = ORIENTED_EDGE ( 'NONE', *, *, #1, .F. ) ;
#255 = FACE_OUTER_BOUND ( 'NONE', #235, .T. ) ;
#256 = PRODUCT ( 'QM-CAQWP-10-650-1100-M', 'QM-CAQWP-10-650-1100-M', '', ( #73 ) ) ;
#257 = PERSON_AND_ORGANIZATION_ROLE ( 'design_owner' ) ;
#258 = APPROVAL_ROLE ( '' ) ;
#259 = ORIENTED_EDGE ( 'NONE', *, *, #42, .T. ) ;
#260 = ORGANIZATION ( 'UNSPECIFIED', 'UNSPECIFIED', '' ) ;
#261 = APPROVAL ( #104, 'UNSPECIFIED' ) ;
#262 = FACE_OUTER_BOUND ( 'NONE', #6, .T. ) ;
#263 = SHAPE_DEFINITION_REPRESENTATION ( #33, #266 ) ;
#264 = DIRECTION ( 'NONE',  ( -1.000000000000000000, -0.000000000000000000, -0.000000000000000000 ) ) ;
#265 = DIRECTION ( 'NONE',  ( -1.000000000000000000, -0.000000000000000000, -0.000000000000000000 ) ) ;
#266 = ADVANCED_BREP_SHAPE_REPRESENTATION ( 'QM-CAQWP-10-650-1100-M', ( #179, #232 ), #158 ) ;
#267 = DIRECTION ( 'NONE',  ( -1.000000000000000000, -0.000000000000000000, -0.000000000000000000 ) ) ;
#268 = ADVANCED_FACE ( 'NONE', ( #49, #92 ), #120, .F. ) ;
#269 = VECTOR ( 'NONE', #267, 1000.000000000000000 ) ;
#270 = DIRECTION ( 'NONE',  ( -1.000000000000000000, -0.000000000000000000, -0.000000000000000000 ) ) ;
#271 = DIRECTION ( 'NONE',  ( -1.000000000000000000, -0.000000000000000000, -0.000000000000000000 ) ) ;
#272 = CARTESIAN_POINT ( 'NONE',  ( 0.5000000000000002220, 5.000000000000000000, 0.000000000000000000 ) ) ;
#273 = CARTESIAN_POINT ( 'NONE',  ( -0.5000000000000002220, 0.000000000000000000, 0.000000000000000000 ) ) ;
#274 = AXIS2_PLACEMENT_3D ( 'NONE', #290, #265, #114 ) ;
#275 = ORIENTED_EDGE ( 'NONE', *, *, #219, .T. ) ;
#276 = CARTESIAN_POINT ( 'NONE',  ( -1.614212418857619014, 6.123233995736767268E-16, -5.000000000000000888 ) ) ;
#277 = VERTEX_POINT ( 'NONE', #146 ) ;
#278 = DIRECTION ( 'NONE',  ( 0.000000000000000000, 0.000000000000000000, -1.000000000000000000 ) ) ;
#279 = ORIENTED_EDGE ( 'NONE', *, *, #42, .F. ) ;
#280 =( NAMED_UNIT ( * ) PLANE_ANGLE_UNIT ( ) SI_UNIT ( $, .RADIAN. ) );
#281 = PERSON_AND_ORGANIZATION ( #141, #260 ) ;
#282 = CC_DESIGN_PERSON_AND_ORGANIZATION_ASSIGNMENT ( #8, #107, ( #30 ) ) ;
#283 = CALENDAR_DATE ( 2021, 5, 1 ) ;
#284 = CALENDAR_DATE ( 2021, 5, 1 ) ;
#285 = AXIS2_PLACEMENT_3D ( 'NONE', #302, #296, #68 ) ;
#286 = DATE_TIME_ROLE ( 'classification_date' ) ;
#287 = DIRECTION ( 'NONE',  ( 0.000000000000000000, 0.000000000000000000, 1.000000000000000000 ) ) ;
#288 = COORDINATED_UNIVERSAL_TIME_OFFSET ( 8, 0, .AHEAD. ) ;
#289 = LINE ( 'NONE', #323, #65 ) ;
#290 = CARTESIAN_POINT ( 'NONE',  ( 0.5000000000000004441, 0.000000000000000000, 0.000000000000000000 ) ) ;
#291 = LOCAL_TIME ( 10, 44, 1.000000000000000000, #288 ) ;
#292 = DIRECTION ( 'NONE',  ( -1.000000000000000000, -0.000000000000000000, -0.000000000000000000 ) ) ;
#293 = LINE ( 'NONE', #167, #269 ) ;
#294 = APPROVAL ( #83, 'UNSPECIFIED' ) ;
#295 = CARTESIAN_POINT ( 'NONE',  ( -0.5000000000000002220, 5.000000000000000000, 0.000000000000000000 ) ) ;
#296 = DIRECTION ( 'NONE',  ( -1.000000000000000000, -0.000000000000000000, -0.000000000000000000 ) ) ;
#297 = DIRECTION ( 'NONE',  ( 0.000000000000000000, 0.000000000000000000, 1.000000000000000000 ) ) ;
#298 = DIRECTION ( 'NONE',  ( -1.000000000000000000, -0.000000000000000000, -0.000000000000000000 ) ) ;
#299 = CIRCLE ( 'NONE', #237, 5.000000000000001776 ) ;
#300 = EDGE_LOOP ( 'NONE', ( #12, #254 ) ) ;
#301 = CIRCLE ( 'NONE', #127, 5.000000000000000000 ) ;
#302 = CARTESIAN_POINT ( 'NONE',  ( -1.614212418857619014, 0.000000000000000000, 0.000000000000000000 ) ) ;
#303 = ORIENTED_EDGE ( 'NONE', *, *, #161, .F. ) ;
#304 = EDGE_CURVE ( 'NONE', #202, #238, #206, .T. ) ;
#305 = DIRECTION ( 'NONE',  ( 1.000000000000000000, 0.000000000000000000, 0.000000000000000000 ) ) ;
#306 = ORIENTED_EDGE ( 'NONE', *, *, #211, .T. ) ;
#307 = EDGE_CURVE ( 'NONE', #204, #238, #175, .T. ) ;
#308 = APPLICATION_PROTOCOL_DEFINITION ( 'international standard', 'config_control_design', 1994, #67 ) ;
#309 = AXIS2_PLACEMENT_3D ( 'NONE', #38, #88, #241 ) ;
#310 = DATE_TIME_ROLE ( 'creation_date' ) ;
#311 = AXIS2_PLACEMENT_3D ( 'NONE', #90, #44, #278 ) ;
#312 = COORDINATED_UNIVERSAL_TIME_OFFSET ( 8, 0, .AHEAD. ) ;
#313 = CYLINDRICAL_SURFACE ( 'NONE', #46, 5.000000000000000888 ) ;
#314 = EDGE_LOOP ( 'NONE', ( #178, #52 ) ) ;
#315 = ADVANCED_FACE ( 'NONE', ( #255 ), #313, .F. ) ;
#316 = CARTESIAN_POINT ( 'NONE',  ( -1.614212418857619014, 0.000000000000000000, 0.000000000000000000 ) ) ;
#317 = AXIS2_PLACEMENT_3D ( 'NONE', #273, #250, #16 ) ;
#318 = CALENDAR_DATE ( 2021, 5, 1 ) ;
#319 = DIRECTION ( 'NONE',  ( -1.000000000000000000, -0.000000000000000000, -0.000000000000000000 ) ) ;
#320 = EDGE_CURVE ( 'NONE', #71, #234, #14, .T. ) ;
#321 = EDGE_CURVE ( 'NONE', #85, #202, #77, .T. ) ;
#322 = CYLINDRICAL_SURFACE ( 'NONE', #102, 5.000000000000000888 ) ;
#323 = CARTESIAN_POINT ( 'NONE',  ( -1.614212418857619014, 0.000000000000000000, 12.69999999999999929 ) ) ;
#324 = CARTESIAN_POINT ( 'NONE',  ( -3.000000000000000000, 0.000000000000000000, 12.69999999999999929 ) ) ;
#325 = DIRECTION ( 'NONE',  ( -1.000000000000000000, 0.000000000000000000, -0.000000000000000000 ) ) ;
#326 = CIRCLE ( 'NONE', #126, 5.000000000000001776 ) ;
#327 = PLANE ( 'NONE',  #212 ) ;
#328 = CC_DESIGN_APPROVAL ( #294, ( #30 ) ) ;
#329 = DIRECTION ( 'NONE',  ( -1.000000000000000000, -0.000000000000000000, -0.000000000000000000 ) ) ;
#330 = CARTESIAN_POINT ( 'NONE',  ( -0.5000000000000002220, 6.123233995736767268E-16, -5.000000000000000888 ) ) ;
#331 = ORIENTED_EDGE ( 'NONE', *, *, #321, .T. ) ;
#332 = CYLINDRICAL_SURFACE ( 'NONE', #115, 5.000000000000000888 ) ;
#333 = ORIENTED_EDGE ( 'NONE', *, *, #320, .T. ) ;
#334 = APPROVAL_DATE_TIME ( #53, #79 ) ;
#335 = ORIENTED_EDGE ( 'NONE', *, *, #321, .F. ) ;
ENDSEC;
END-ISO-10303-21;
